  0
SECTION
  2
HEADER
  9
$ACADVER
  1
AC1009
  9
$INSBASE
 10
0.0
 20
0.0
 30
0.0
  9
$EXTMIN
 10
2009.205604020327
 20
1506.270350241339
 30
0.0
  9
$EXTMAX
 10
2277.1284488086021
 20
1708.520618839332
 30
0.0
  9
$LIMMIN
 10
0.0
 20
0.0
  9
$LIMMAX
 10
12.0
 20
9.0
  9
$ORTHOMODE
 70
     0
  9
$REGENMODE
 70
     1
  9
$FILLMODE
 70
     1
  9
$QTEXTMODE
 70
     0
  9
$MIRRTEXT
 70
     0
  9
$DRAGMODE
 70
     2
  9
$LTSCALE
 40
5.0
  9
$OSMODE
 70
  2239
  9
$ATTMODE
 70
     1
  9
$TEXTSIZE
 40
2.5
  9
$TRACEWID
 40
0.05
  9
$TEXTSTYLE
  7
BIG
  9
$CLAYER
  8
0
  9
$CELTYPE
  6
BYLAYER
  9
$CECOLOR
 62
   256
  9
$DIMSCALE
 40
1.0
  9
$DIMASZ
 40
3.0
  9
$DIMEXO
 40
1.0
  9
$DIMDLI
 40
0.0
  9
$DIMRND
 40
0.0
  9
$DIMDLE
 40
0.0
  9
$DIMEXE
 40
1.0
  9
$DIMTP
 40
0.0
  9
$DIMTM
 40
0.0
  9
$DIMTXT
 40
3.0
  9
$DIMCEN
 40
0.0
  9
$DIMTSZ
 40
0.0
  9
$DIMTOL
 70
     0
  9
$DIMLIM
 70
     0
  9
$DIMTIH
 70
     0
  9
$DIMTOH
 70
     0
  9
$DIMSE1
 70
     0
  9
$DIMSE2
 70
     0
  9
$DIMTAD
 70
     1
  9
$DIMZIN
 70
     8
  9
$DIMBLK
  1

  9
$DIMASO
 70
     1
  9
$DIMSHO
 70
     1
  9
$DIMPOST
  1

  9
$DIMAPOST
  1

  9
$DIMALT
 70
     0
  9
$DIMALTD
 70
     2
  9
$DIMALTF
 40
25.399999999999999
  9
$DIMLFAC
 40
1.0
  9
$DIMTOFL
 70
     1
  9
$DIMTVP
 40
0.0
  9
$DIMTIX
 70
     1
  9
$DIMSOXD
 70
     0
  9
$DIMSAH
 70
     0
  9
$DIMBLK1
  1

  9
$DIMBLK2
  1

  9
$DIMSTYLE
  2
DUKITEC
  9
$DIMCLRD
 70
     5
  9
$DIMCLRE
 70
     5
  9
$DIMCLRT
 70
     0
  9
$DIMTFAC
 40
1.0
  9
$DIMGAP
 40
1.0
  9
$LUNITS
 70
     2
  9
$LUPREC
 70
     4
  9
$SKETCHINC
 40
0.1
  9
$FILLETRAD
 40
0.2
  9
$AUNITS
 70
     0
  9
$AUPREC
 70
     0
  9
$MENU
  1
.
  9
$ELEVATION
 40
0.0
  9
$PELEVATION
 40
0.0
  9
$THICKNESS
 40
0.0
  9
$LIMCHECK
 70
     0
  9
$BLIPMODE
 70
     0
  9
$CHAMFERA
 40
0.5
  9
$CHAMFERB
 40
0.5
  9
$SKPOLY
 70
     0
  9
$TDCREATE
 40
2454396.7465545372
  9
$TDUPDATE
 40
2456631.4129787269
  9
$TDINDWG
 40
0.0295145486
  9
$TDUSRTIMER
 40
0.0295143866
  9
$USRTIMER
 70
     1
  9
$ANGBASE
 50
0.0
  9
$ANGDIR
 70
     0
  9
$PDMODE
 70
     0
  9
$PDSIZE
 40
0.0
  9
$PLINEWID
 40
0.0
  9
$COORDS
 70
     1
  9
$SPLFRAME
 70
     0
  9
$SPLINETYPE
 70
     6
  9
$SPLINESEGS
 70
     8
  9
$ATTDIA
 70
     0
  9
$ATTREQ
 70
     1
  9
$HANDLING
 70
     1
  9
$HANDSEED
  5
14518
  9
$SURFTAB1
 70
     6
  9
$SURFTAB2
 70
     6
  9
$SURFTYPE
 70
     6
  9
$SURFU
 70
     6
  9
$SURFV
 70
     6
  9
$UCSNAME
  2

  9
$UCSORG
 10
0.0
 20
0.0
 30
0.0
  9
$UCSXDIR
 10
1.0
 20
0.0
 30
0.0
  9
$UCSYDIR
 10
0.0
 20
1.0
 30
0.0
  9
$PUCSNAME
  2

  9
$PUCSORG
 10
0.0
 20
0.0
 30
0.0
  9
$PUCSXDIR
 10
1.0
 20
0.0
 30
0.0
  9
$PUCSYDIR
 10
0.0
 20
1.0
 30
0.0
  9
$USERI1
 70
     0
  9
$USERI2
 70
     0
  9
$USERI3
 70
     0
  9
$USERI4
 70
     0
  9
$USERI5
 70
     0
  9
$USERR1
 40
0.0
  9
$USERR2
 40
0.0
  9
$USERR3
 40
0.0
  9
$USERR4
 40
0.0
  9
$USERR5
 40
0.0
  9
$WORLDVIEW
 70
     1
  9
$SHADEDGE
 70
     3
  9
$SHADEDIF
 70
    70
  9
$TILEMODE
 70
     1
  9
$MAXACTVP
 70
    64
  9
$PLIMCHECK
 70
     0
  9
$PEXTMIN
 10
0.0
 20
0.0
 30
0.0
  9
$PEXTMAX
 10
0.0
 20
0.0
 30
0.0
  9
$PLIMMIN
 10
0.0
 20
0.0
  9
$PLIMMAX
 10
12.0
 20
9.0
  9
$UNITMODE
 70
     0
  9
$VISRETAIN
 70
     1
  9
$PLINEGEN
 70
     0
  9
$PSLTSCALE
 70
     1
  0
ENDSEC
  0
SECTION
  2
TABLES
  0
TABLE
  2
VPORT
 70
     1
  0
VPORT
  2
*ACTIVE
 70
     0
 10
0.0
 20
0.0
 11
1.0
 21
1.0
 12
2186.3455973474288
 22
1622.785286384312
 13
0.0
 23
0.0
 14
0.5
 24
0.5
 15
0.5
 25
0.5
 16
0.0
 26
0.0
 36
1.0
 17
0.0
 27
0.0
 37
0.0
 40
299.60921897363539
 41
2.1408934707903771
 42
50.0
 43
0.0
 44
0.0
 50
0.0
 51
0.0
 71
     0
 72
  2000
 73
     1
 74
     3
 75
     0
 76
     0
 77
     0
 78
     0
  0
ENDTAB
  0
TABLE
  2
LTYPE
 70
     4
  0
LTYPE
  2
CONTINUOUS
 70
     0
  3
Solid line
 72
    65
 73
     0
 40
0.0
  0
LTYPE
  2
PHANTOM2
 70
     0
  3
Phantom (.5x) ___ _ _ ___ _ _ ___ _ _ ___ _ _
 72
    65
 73
     6
 40
1.25
 49
0.625
 49
-0.125
 49
0.125
 49
-0.125
 49
0.125
 49
-0.125
  0
LTYPE
  2
CENTER
 70
     0
  3
___ _ ___ _ ___ _ ___ _ ___ _ ___ _ ___ _ ___ _
 72
    65
 73
     4
 40
0.95
 49
0.625
 49
-0.125
 49
0.075
 49
-0.125
  0
LTYPE
  2
DASHED2
 70
     0
  3
Dashed (.5x) _ _ _ _ _ _ _ _ _ _ _ _ _ _ _ _ _
 72
    65
 73
     2
 40
0.375
 49
0.25
 49
-0.125
  0
ENDTAB
  0
TABLE
  2
LAYER
 70
     5
  0
LAYER
  2
0
 70
     0
 62
     7
  6
CONTINUOUS
  0
LAYER
  2
HIDE
 70
     0
 62
     1
  6
DASHED2
  0
LAYER
  2
CENTER
 70
     0
 62
     3
  6
CENTER
  0
LAYER
  2
HIDE1
 70
     0
 62
     1
  6
CONTINUOUS
  0
ENDTAB
  0
TABLE
  2
STYLE
 70
     3
  0
STYLE
  2
STANDARD
 70
     0
 40
5.0
 41
1.0
 50
0.0
 71
     0
 42
5.0
  3
txt.shx
  4
whgtxt.shx
  0
STYLE
  2
BIG
 70
     0
 40
20.0
 41
1.0
 50
0.0
 71
     0
 42
2.5
  3
txt
  4

  0
ENDTAB
  0
TABLE
  2
VIEW
 70
     0
  0
ENDTAB
  0
TABLE
  2
UCS
 70
     0
  0
ENDTAB
  0
TABLE
  2
APPID
 70
    18
  0
APPID
  2
ACAD
 70
     0
  0
APPID
  2
ACADANNOTATIVE
 70
     0
  0
APPID
  2
ACAD_EXEMPT_FROM_CAD_STANDARDS
 70
     0
  0
APPID
  2
ACAD_DSTYLE_DIMJOGGED_JOGA
 70
     0
  0
APPID
  2
ACAD_PSEXT
 70
     0
  0
APPID
  2
ACAECLAYERSTANDARD
 70
     0
  0
APPID
  2
DCO15
 70
     0
  0
APPID
  2
CONTENTBLOCKICON
 70
     0
  0
APPID
  2
ACAD_DSTYLE_DIMJAG
 70
     0
  0
APPID
  2
ACAD_DSTYLE_DIMBREAK
 70
     0
  0
APPID
  2
ACAD_DSTYLE_DIMTALN
 70
     0
  0
APPID
  2
ACAD_DSTYLE_DIMTEXT_FILL
 70
     0
  0
APPID
  2
ACAD_NAV_VCDISPLAY
 70
     0
  0
APPID
  2
ACDBDYNAMICBLOCKTRUENAME2
 70
     0
  0
APPID
  2
CAXA_DRAFT_DIMSTYLE_ANGTXTVPOS
 70
     0
  0
APPID
  2
CAXA_DRAFT_TXTSTYLE
 70
     0
  0
APPID
  2
ACAD_MLEADERVER
 70
     0
  0
APPID
  2
ACAD_DSTYLE_DIMRADIAL_EXTENSION
 70
     0
  0
ENDTAB
  0
TABLE
  2
DIMSTYLE
 70
     3
  0
DIMSTYLE
  2
DUKITEC
 70
     0
  3

  4

  5

  6

  7

 40
1.0
 41
3.0
 42
1.0
 43
0.0
 44
1.0
 45
0.0
 46
0.0
 47
0.0
 48
0.0
140
3.0
141
0.0
142
0.0
143
25.399999999999999
144
1.0
145
0.0
146
1.0
147
1.0
 71
     0
 72
     0
 73
     0
 74
     0
 75
     0
 76
     0
 77
     1
 78
     8
170
     0
171
     2
172
     1
173
     0
174
     1
175
     0
176
     5
177
     5
178
     0
  0
ENDTAB
  0
ENDSEC
  0
SECTION
  2
BLOCKS
  0
BLOCK
  8
0
  2
$MODEL_SPACE
 70
     0
 10
0.0
 20
0.0
 30
0.0
  3
$MODEL_SPACE
  1

  0
ENDBLK
  5
14405
  8
0
  0
BLOCK
 67
     1
  8
0
  2
$PAPER_SPACE
 70
     0
 10
0.0
 20
0.0
 30
0.0
  3
$PAPER_SPACE
  1

  0
ENDBLK
  5
14401
 67
     1
  8
0
  0
ENDSEC
  0
SECTION
  2
ENTITIES
  0
TEXT
  5
14010
  8
0
 10
2104.0955729711318
 20
1506.270350241339
 30
0.0
 40
20.0
  1
FK 30 T
  7
BIG
  0
ARC
  5
140CC
  8
0
 10
2090.705604020327
 20
1640.520618839332
 30
0.0
 40
58.5
 50
172.35685197291639
 51
187.64314802708361
  0
ARC
  5
140CE
  8
0
 10
2090.705604020327
 20
1640.520618839332
 30
0.0
 40
58.5
 50
262.35685197291468
 51
277.6431480270852
  0
ARC
  5
140CF
  8
0
 10
2090.705604020327
 20
1640.520618839332
 30
0.0
 40
58.5
 50
82.356851972914654
 51
97.643148027085303
  0
LINE
  5
140D0
  8
0
 10
2082.924939491174
 20
1582.540352718135
 30
0.0
 11
2032.72533789913
 21
1632.7399543101801
 31
0.0
  0
LINE
  5
140D1
  8
0
 10
2148.685870141524
 20
1632.7399543101801
 30
0.0
 11
2098.48626854948
 21
1582.540352718135
 31
0.0
  0
LINE
  5
140D2
  8
0
 10
2098.48626854948
 20
1698.5008849605281
 30
0.0
 11
2148.685870141524
 21
1648.3012833684841
 31
0.0
  0
LINE
  5
140D3
  8
0
 10
2032.72533789913
 20
1648.3012833684841
 30
0.0
 11
2082.924939491174
 21
1698.5008849605281
 31
0.0
  0
ARC
  5
140D4
  8
0
 10
2090.705604020327
 20
1640.520618839332
 30
0.0
 40
58.5
 50
352.3568519729165
 51
7.6431480270835959
  0
CIRCLE
  5
140D5
  8
0
 10
2106.9764040203272
 20
1605.627767839331
 30
0.0
 40
7.5
  0
CIRCLE
  5
140D6
  8
0
 10
2125.5984290203269
 20
1656.791475839332
 30
0.0
 40
7.5
  0
CIRCLE
  5
140D7
  8
0
 10
2074.4348280203271
 20
1675.413481839332
 30
0.0
 40
7.5
  0
CIRCLE
  5
140D8
  8
0
 10
2055.8127790203271
 20
1624.249761839332
 30
0.0
 40
7.5
  0
ARC
  5
140D9
  8
CENTER
 10
2090.705604020327
 20
1640.520618839332
 30
0.0
 40
38.5
 50
99.724845999982364
 51
130.20414400002679
  0
ARC
  5
140DA
  8
CENTER
 10
2090.705604020327
 20
1640.520618839332
 30
0.0
 40
38.5
 50
9.6691120000062103
 51
40.335742999987481
  0
ARC
  5
140DB
  8
CENTER
 10
2090.705604020327
 20
1640.520618839332
 30
0.0
 40
38.5
 50
279.65096499998799
 51
311.37827499996979
  0
CIRCLE
  5
140DC
  8
0
 10
2090.705604020327
 20
1640.520618839332
 30
0.0
 40
25.5
  0
ARC
  5
140DD
  8
CENTER
 10
2090.705604020327
 20
1640.520618839332
 30
0.0
 40
38.5
 50
189.1916959999875
 51
220.24905899998149
  0
CIRCLE
  5
140DE
  8
0
 10
2090.705604020327
 20
1593.020618839332
 30
0.0
 40
5.5
  0
CIRCLE
  5
140DF
  8
0
 10
2090.705604020327
 20
1593.020618839332
 30
0.0
 40
8.75
  0
CIRCLE
  5
140E0
  8
0
 10
2043.205604020327
 20
1640.520618839332
 30
0.0
 40
5.5
  0
CIRCLE
  5
140E1
  8
0
 10
2043.205604020327
 20
1640.520618839332
 30
0.0
 40
8.75
  0
CIRCLE
  5
140E2
  8
0
 10
2090.705604020327
 20
1688.020618839332
 30
0.0
 40
5.5
  0
CIRCLE
  5
140E3
  8
0
 10
2090.705604020327
 20
1688.020618839332
 30
0.0
 40
8.75
  0
CIRCLE
  5
140E4
  8
0
 10
2138.205604020327
 20
1640.5205878393319
 30
0.0
 40
5.5
  0
CIRCLE
  5
140E5
  8
0
 10
2138.205604020327
 20
1640.5205878393319
 30
0.0
 40
8.75
  0
LINE
  5
140E6
  8
0
 10
2108.9282950203269
 20
1601.441616839332
 30
0.0
 11
2111.5775330203269
 21
1605.225120839332
 31
0.0
  0
LINE
  5
140E7
  8
0
 10
2102.3750790203271
 20
1606.0302278393319
 30
0.0
 11
2105.0243160203272
 21
1609.813732839332
 31
0.0
  0
LINE
  5
140E8
  8
0
 10
2111.5775450203282
 20
1605.225177839332
 30
0.0
 11
2109.6255410203271
 21
1609.411266839332
 31
0.0
  0
LINE
  5
140E9
  8
0
 10
2104.327082020327
 20
1601.844234839331
 30
0.0
 11
2102.3751040203269
 21
1606.0302658393321
 31
0.0
  0
LINE
  5
140EA
  8
0
 10
2104.327117020327
 20
1601.844303839332
 30
0.0
 11
2108.9283770203269
 21
1601.441745839332
 31
0.0
  0
LINE
  5
140EB
  8
0
 10
2105.0243620203269
 20
1609.8138588393319
 30
0.0
 11
2109.6256210203269
 21
1609.411300839331
 31
0.0
  0
LINE
  5
140EC
  8
0
 10
2051.627361020327
 20
1622.297309839332
 30
0.0
 11
2055.4109420203272
 21
1619.6480218393319
 31
0.0
  0
LINE
  5
140ED
  8
0
 10
2056.2159690203271
 20
1628.8505328393319
 30
0.0
 11
2059.9995470203271
 21
1626.201246839332
 31
0.0
  0
LINE
  5
140EE
  8
0
 10
2055.4102700203271
 20
1619.6486148393319
 30
0.0
 11
2059.5963260203271
 21
1621.6006088393319
 31
0.0
  0
LINE
  5
140EF
  8
0
 10
2052.0295250203271
 20
1626.898632839331
 30
0.0
 11
2056.2155530203281
 21
1628.850613839332
 31
0.0
  0
LINE
  5
140F0
  8
0
 10
2052.0292770203268
 20
1626.8990868393321
 30
0.0
 11
2051.6267240203269
 21
1622.2978268393319
 31
0.0
  0
LINE
  5
140F1
  8
0
 10
2059.9988340203272
 20
1626.2018158393321
 30
0.0
 11
2059.5962860203272
 21
1621.6006168393319
 31
0.0
  0
LINE
  5
140F2
  8
0
 10
2071.7855540203282
 20
1671.629873839332
 30
0.0
 11
2076.3868140203272
 21
1671.2273158393321
 31
0.0
  0
LINE
  5
140F3
  8
0
 10
2072.4827990203271
 20
1679.5994338393321
 30
0.0
 11
2077.084059020327
 21
1679.1968768393319
 31
0.0
  0
LINE
  5
140F4
  8
0
 10
2076.3874010203272
 20
1671.2268448393311
 30
0.0
 11
2079.0366390203271
 21
1675.0103498393321
 31
0.0
  0
LINE
  5
140F5
  8
0
 10
2069.8341820203268
 20
1675.815456839332
 30
0.0
 11
2072.4834110203278
 21
1679.5989498393319
 31
0.0
  0
LINE
  5
140F6
  8
0
 10
2069.8338270203262
 20
1675.8154868393319
 30
0.0
 11
2071.7858560203272
 21
1671.6293458393311
 31
0.0
  0
LINE
  5
140F7
  8
0
 10
2077.0842890203262
 20
1679.1964308393319
 30
0.0
 11
2079.0363180203271
 21
1675.0102888393319
 31
0.0
  0
LINE
  5
140F8
  8
0
 10
2121.4123620203268
 20
1654.8393828393321
 30
0.0
 11
2125.1958540203268
 21
1652.1900718393319
 31
0.0
  0
LINE
  5
140F9
  8
0
 10
2126.0010710203269
 20
1661.392530839332
 30
0.0
 11
2129.7845610203271
 21
1658.7432198393319
 31
0.0
  0
LINE
  5
140FA
  8
0
 10
2125.195884020327
 20
1652.1901408393319
 30
0.0
 11
2129.3819690203268
 21
1654.142069839332
 31
0.0
  0
LINE
  5
140FB
  8
0
 10
2121.8150440203272
 20
1659.440652839332
 30
0.0
 11
2126.0011060203269
 21
1661.3925688393319
 31
0.0
  0
LINE
  5
140FC
  8
0
 10
2121.8150230203282
 20
1659.440679839332
 30
0.0
 11
2121.4124010203268
 21
1654.8394568393319
 31
0.0
  0
LINE
  5
140FD
  8
0
 10
2129.7845720203268
 20
1658.743316839332
 30
0.0
 11
2129.3819460203272
 21
1654.142092839332
 31
0.0
  0
LINE
  5
140FE
  8
CENTER
 10
2064.6299890203268
 20
1628.3612938393319
 30
0.0
 11
2047.0720630203271
 21
1620.1738998393321
 31
0.0
  0
LINE
  5
140FF
  8
CENTER
 10
2078.4418660203269
 20
1666.820359839332
 30
0.0
 11
2070.5985430203268
 21
1683.6404228393319
 31
0.0
  0
LINE
  5
14100
  8
CENTER
 10
2116.4164210203271
 20
1652.509701839331
 30
0.0
 11
2134.0469290203268
 21
1660.7309428393321
 31
0.0
  0
LINE
  5
14101
  8
CENTER
 10
2102.833214020327
 20
1614.5128698393321
 30
0.0
 11
2111.0108980203272
 21
1596.975766839332
 31
0.0
  0
LINE
  5
14102
  8
CENTER
 10
2022.705604020327
 20
1640.520618839332
 30
0.0
 11
2158.705604020327
 21
1640.520618839332
 31
0.0
  0
LINE
  5
14103
  8
CENTER
 10
2090.705604020327
 20
1572.520618839332
 30
0.0
 11
2090.705604020327
 21
1708.520618839332
 31
0.0
  0
ARC
  5
1411F
  8
CENTER
 10
2090.705604020327
 20
1640.520618839332
 30
0.0
 40
47.5
 50
254.2696931442043
 51
285.73030685579567
  0
ARC
  5
14120
  8
CENTER
 10
2090.705604020327
 20
1640.520618839332
 30
0.0
 40
47.5
 50
344.26969314421677
 51
15.73030685578313
  0
ARC
  5
14121
  8
CENTER
 10
2090.705604020327
 20
1640.520618839332
 30
0.0
 40
47.5
 50
74.269693144204339
 51
105.7303068557956
  0
ARC
  5
14122
  8
CENTER
 10
2090.705604020327
 20
1640.520618839332
 30
0.0
 40
47.5
 50
164.26969314421689
 51
195.73030685578311
  0
LINE
  5
14127
  8
HIDE
 10
2209.5542586975671
 20
1601.770618839332
 30
0.0
 11
2224.5542586975648
 21
1601.770618839332
 31
0.0
  0
LINE
  5
14128
  8
HIDE
 10
2224.5542586975671
 20
1598.520618839332
 30
0.0
 11
2239.5542586975662
 21
1598.520618839332
 31
0.0
  0
LINE
  5
14129
  8
HIDE
 10
2224.5542586975671
 20
1587.520618839332
 30
0.0
 11
2239.5542586975662
 21
1587.520618839332
 31
0.0
  0
LINE
  5
1412A
  8
HIDE
 10
2209.5542586975671
 20
1584.270618839332
 30
0.0
 11
2224.5542586975648
 21
1584.270618839332
 31
0.0
  0
LINE
  5
1412B
  8
HIDE
 10
2209.5542586975671
 20
1679.270618839332
 30
0.0
 11
2224.5542586975648
 21
1679.270618839332
 31
0.0
  0
LINE
  5
1412C
  8
HIDE
 10
2224.5542586975671
 20
1682.520618839332
 30
0.0
 11
2239.5542586975662
 21
1682.520618839332
 31
0.0
  0
LINE
  5
1412D
  8
HIDE
 10
2224.5542586975671
 20
1693.520618839332
 30
0.0
 11
2239.5542586975662
 21
1693.520618839332
 31
0.0
  0
LINE
  5
1412E
  8
HIDE
 10
2209.5542586975671
 20
1696.770618839332
 30
0.0
 11
2224.5542586975648
 21
1696.770618839332
 31
0.0
  0
LINE
  5
1412F
  8
CENTER
 10
2205.3360891736461
 20
1593.020618839332
 30
0.0
 11
2242.8179660252972
 21
1593.020618839332
 31
0.0
  0
LINE
  5
14130
  8
CENTER
 10
2205.3360891736461
 20
1688.020618839332
 30
0.0
 11
2242.8179660252972
 21
1688.020618839332
 31
0.0
  0
LINE
  5
14131
  8
0
 10
2224.5542586975671
 20
1699.020618839332
 30
0.0
 11
2239.5542586975662
 21
1699.020618839332
 31
0.0
  0
LINE
  5
14132
  8
0
 10
2209.5542586975671
 20
1699.020618839332
 30
0.0
 11
2224.5542586975671
 21
1699.020618839332
 31
0.0
  0
LINE
  5
14133
  8
0
 10
2224.5542586975671
 20
1582.020618839332
 30
0.0
 11
2239.5542586975662
 21
1582.020618839332
 31
0.0
  0
LINE
  5
14134
  8
0
 10
2209.5542586975671
 20
1582.020618839332
 30
0.0
 11
2224.5542586975671
 21
1582.020618839332
 31
0.0
  0
LINE
  5
14135
  8
CENTER
 10
2194.0388866973308
 20
1640.520618839332
 30
0.0
 11
2277.1284488086021
 21
1640.520618839332
 31
0.0
  0
LINE
  5
14136
  8
HIDE
 10
2217.5542586975671
 20
1625.520618839332
 30
0.0
 11
2228.5542586975671
 21
1625.520618839332
 31
0.0
  0
LINE
  5
14137
  8
HIDE
 10
2260.5542586975671
 20
1625.520618839332
 30
0.0
 11
2271.5542586975662
 21
1625.520618839332
 31
0.0
  0
LINE
  5
14138
  8
HIDE
 10
2217.5542586975671
 20
1655.520618839332
 30
0.0
 11
2228.5542586975671
 21
1655.5206188393311
 31
0.0
  0
LINE
  5
14139
  8
HIDE
 10
2260.5542586975671
 20
1655.5206188393311
 30
0.0
 11
2271.5542586975662
 21
1655.520618839332
 31
0.0
  0
LINE
  5
1413A
  8
HIDE
 10
2217.5542586975671
 20
1622.2706188393311
 30
0.0
 11
2228.5542586975671
 21
1622.2706188393311
 31
0.0
  0
LINE
  5
1413B
  8
HIDE
 10
2260.5542586975671
 20
1622.2706188393311
 30
0.0
 11
2271.5542586975662
 21
1622.270618839332
 31
0.0
  0
LINE
  5
1413C
  8
HIDE
 10
2217.5542586975671
 20
1658.770618839332
 30
0.0
 11
2228.5542586975671
 21
1658.770618839332
 31
0.0
  0
LINE
  5
1413D
  8
HIDE
 10
2260.5542586975671
 20
1658.770618839332
 30
0.0
 11
2271.5542586975662
 21
1658.770618839332
 31
0.0
  0
LINE
  5
1413E
  8
0
 10
2209.5542586975671
 20
1648.3012588393319
 30
0.0
 11
2239.5542586975662
 21
1648.3012588393319
 31
0.0
  0
LINE
  5
1413F
  8
0
 10
2209.5542586975671
 20
1632.7399488393321
 30
0.0
 11
2239.5542586975662
 21
1632.7399488393321
 31
0.0
  0
LINE
  5
14140
  8
0
 10
2224.5542586975671
 20
1582.020618839332
 30
0.0
 11
2224.5542586975671
 21
1699.020618839332
 31
0.0
  0
LINE
  5
14141
  8
0
 10
2271.5542586975662
 20
1603.020618839332
 30
0.0
 11
2271.5542586975662
 21
1678.020618839332
 31
0.0
  0
LINE
  5
14142
  8
0
 10
2239.5542586975662
 20
1582.020618839332
 30
0.0
 11
2239.5542586975662
 21
1699.020618839332
 31
0.0
  0
LINE
  5
14143
  8
0
 10
2271.5542586975662
 20
1603.020618839332
 30
0.0
 11
2239.5542586975662
 21
1603.020618839332
 31
0.0
  0
LINE
  5
14144
  8
0
 10
2271.5542586975662
 20
1678.020618839332
 30
0.0
 11
2239.5542586975662
 21
1678.020618839332
 31
0.0
  0
LINE
  5
14145
  8
0
 10
2209.5542586975671
 20
1699.020618839332
 30
0.0
 11
2209.5542586975671
 21
1582.020618839332
 31
0.0
  0
LINE
  5
1415C
  8
CENTER
 10
2221.0939447898372
 20
1640.520618839332
 30
0.0
 11
2197.549463814687
 21
1640.520618839332
 31
0.0
  0
CIRCLE
  5
14178
  8
HIDE
 10
2252.5542586975671
 20
1617.520618839332
 30
0.0
 40
4.799999999999998
  0
CIRCLE
  5
14179
  8
HIDE
 10
2252.5542586975671
 20
1663.520618839332
 30
0.0
 40
4.799999999999998
  0
CIRCLE
  5
1417A
  8
HIDE
 10
2236.5542586975671
 20
1617.520618839332
 30
0.0
 40
4.799999999999998
  0
CIRCLE
  5
1417B
  8
HIDE
 10
2236.5542586975671
 20
1663.520618839332
 30
0.0
 40
4.799999999999998
  0
ARC
  5
1417C
  8
HIDE
 10
2243.9542586975658
 20
1670.92061883933
 30
0.0
 40
0.5999999999999996
 50
0.0
 51
90.0
  0
ARC
  5
1417D
  8
HIDE
 10
2229.5542586975671
 20
1670.520618839332
 30
0.0
 40
1.0
 50
90.0
 51
180.0
  0
ARC
  5
1417E
  8
HIDE
 10
2243.5542586975671
 20
1656.520618839332
 30
0.0
 40
1.0
 50
270.0
 51
0.0
  0
ARC
  5
1417F
  8
HIDE
 10
2243.5542586975671
 20
1624.520618839332
 30
0.0
 40
1.0
 50
0.0
 51
90.0
  0
ARC
  5
14180
  8
HIDE
 10
2229.1542586975661
 20
1656.1206188393321
 30
0.0
 40
0.6000000000000015
 50
180.0
 51
270.0
  0
ARC
  5
14181
  8
HIDE
 10
2229.1542586975661
 20
1624.9206188393309
 30
0.0
 40
0.5999999999999996
 50
90.0
 51
180.0
  0
ARC
  5
14182
  8
HIDE
 10
2243.9542586975658
 20
1610.1206188393321
 30
0.0
 40
0.6000000000000015
 50
270.0
 51
0.0
  0
ARC
  5
14183
  8
HIDE
 10
2229.5542586975671
 20
1610.520618839332
 30
0.0
 40
1.0
 50
180.0
 51
270.0
  0
LINE
  5
14184
  8
HIDE
 10
2228.5542586975671
 20
1665.5706188393319
 30
0.0
 11
2232.2140398090769
 21
1665.5706188393319
 31
0.0
  0
LINE
  5
14185
  8
HIDE
 10
2229.5542586975671
 20
1671.520618839332
 30
0.0
 11
2243.9542586975658
 21
1671.520618839332
 31
0.0
  0
LINE
  5
14186
  8
HIDE
 10
2244.5542586975671
 20
1661.3706188393321
 30
0.0
 11
2240.8458201849498
 21
1661.3706188393321
 31
0.0
  0
LINE
  5
14187
  8
HIDE
 10
2238.283287615986
 20
1667.998392728138
 30
0.0
 11
2244.5542586975671
 21
1668.5706188393319
 31
0.0
  0
LINE
  5
14188
  8
HIDE
 10
2228.5542586975671
 20
1661.3706188393321
 30
0.0
 11
2232.2626972101821
 21
1661.3706188393321
 31
0.0
  0
LINE
  5
14189
  8
HIDE
 10
2228.5542586975671
 20
1619.6706188393321
 30
0.0
 11
2232.2626972101821
 21
1619.6706188393321
 31
0.0
  0
LINE
  5
1418A
  8
HIDE
 10
2229.1542586975661
 20
1655.520618839332
 30
0.0
 11
2243.5542586975671
 21
1655.520618839332
 31
0.0
  0
LINE
  5
1418B
  8
HIDE
 10
2229.1542586975661
 20
1625.520618839332
 30
0.0
 11
2243.5542586975671
 21
1625.520618839332
 31
0.0
  0
LINE
  5
1418C
  8
HIDE
 10
2244.5542586975671
 20
1619.6706188393321
 30
0.0
 11
2240.8458201849498
 21
1619.6706188393321
 31
0.0
  0
LINE
  5
1418D
  8
HIDE
 10
2228.5542586975671
 20
1615.470618839332
 30
0.0
 11
2232.2140398090769
 21
1615.470618839332
 31
0.0
  0
LINE
  5
1418E
  8
HIDE
 10
2243.9542586975658
 20
1609.520618839332
 30
0.0
 11
2229.5542586975671
 21
1609.520618839332
 31
0.0
  0
LINE
  5
1418F
  8
HIDE
 10
2238.283287615985
 20
1613.0428449505259
 30
0.0
 11
2244.5542586975671
 21
1612.470618839332
 31
0.0
  0
LINE
  5
14190
  8
HIDE
 10
2228.5542586975671
 20
1610.520618839332
 30
0.0
 11
2228.5542586975671
 21
1670.520618839332
 31
0.0
  0
LINE
  5
14191
  8
HIDE
 10
2244.5542586975671
 20
1670.92061883933
 30
0.0
 11
2244.5542586975671
 21
1610.1206188393321
 31
0.0
  0
LINE
  5
14192
  8
HIDE
 10
2240.999424701627
 20
1619.6706188393321
 30
0.0
 11
2240.6555495723469
 21
1620.014493968612
 31
0.0
  0
ARC
  5
14193
  8
HIDE
 10
2245.1542586975661
 20
1610.1206188393321
 30
0.0
 40
0.6000000000000015
 50
180.0
 51
270.0
  0
ARC
  5
14194
  8
HIDE
 10
2259.5542586975671
 20
1610.520618839332
 30
0.0
 40
1.0
 50
270.0
 51
0.0
  0
ARC
  5
14195
  8
HIDE
 10
2245.5542586975671
 20
1624.520618839332
 30
0.0
 40
1.0
 50
90.0
 51
180.0
  0
ARC
  5
14196
  8
HIDE
 10
2245.5542586975671
 20
1656.520618839332
 30
0.0
 40
1.0
 50
180.0
 51
270.0
  0
ARC
  5
14197
  8
HIDE
 10
2259.9542586975658
 20
1624.9206188393309
 30
0.0
 40
0.6
 50
0.0
 51
90.0
  0
ARC
  5
14198
  8
HIDE
 10
2259.9542586975658
 20
1656.1206188393321
 30
0.0
 40
0.5999999999999996
 50
270.0
 51
0.0
  0
ARC
  5
14199
  8
HIDE
 10
2245.154258697567
 20
1670.9206188393321
 30
0.0
 40
0.6000000000000015
 50
90.0
 51
180.0
  0
ARC
  5
1419A
  8
HIDE
 10
2259.5542586975671
 20
1670.520618839332
 30
0.0
 40
1.0
 50
0.0
 51
90.0
  0
LINE
  5
1419B
  8
HIDE
 10
2260.5542586975671
 20
1615.470618839332
 30
0.0
 11
2256.8944775860559
 21
1615.470618839332
 31
0.0
  0
LINE
  5
1419C
  8
HIDE
 10
2259.5542586975671
 20
1609.520618839332
 30
0.0
 11
2245.1542586975661
 21
1609.520618839332
 31
0.0
  0
LINE
  5
1419D
  8
HIDE
 10
2244.5542586975671
 20
1619.6706188393321
 30
0.0
 11
2248.2626972101821
 21
1619.6706188393321
 31
0.0
  0
LINE
  5
1419E
  8
HIDE
 10
2250.8252297791469
 20
1613.0428449505259
 30
0.0
 11
2244.5542586975671
 21
1612.470618839332
 31
0.0
  0
LINE
  5
1419F
  8
HIDE
 10
2260.5542586975671
 20
1619.6706188393321
 30
0.0
 11
2256.8458201849512
 21
1619.6706188393321
 31
0.0
  0
LINE
  5
141A0
  8
HIDE
 10
2260.5542586975671
 20
1661.3706188393321
 30
0.0
 11
2256.8458201849498
 21
1661.3706188393321
 31
0.0
  0
LINE
  5
141A1
  8
HIDE
 10
2259.9542586975658
 20
1625.520618839332
 30
0.0
 11
2245.5542586975671
 21
1625.520618839332
 31
0.0
  0
LINE
  5
141A2
  8
HIDE
 10
2259.9542586975658
 20
1655.520618839332
 30
0.0
 11
2245.5542586975671
 21
1655.520618839332
 31
0.0
  0
LINE
  5
141A3
  8
HIDE
 10
2244.5542586975671
 20
1661.3706188393321
 30
0.0
 11
2248.2626972101821
 21
1661.3706188393321
 31
0.0
  0
LINE
  5
141A4
  8
HIDE
 10
2260.5542586975671
 20
1665.5706188393319
 30
0.0
 11
2256.8944775860559
 21
1665.5706188393319
 31
0.0
  0
LINE
  5
141A5
  8
HIDE
 10
2245.154258697567
 20
1671.520618839332
 30
0.0
 11
2259.5542586975671
 21
1671.520618839332
 31
0.0
  0
LINE
  5
141A6
  8
HIDE
 10
2250.8252297791469
 20
1667.998392728138
 30
0.0
 11
2244.5542586975671
 21
1668.5706188393319
 31
0.0
  0
LINE
  5
141A7
  8
HIDE
 10
2260.5542586975671
 20
1670.520618839332
 30
0.0
 11
2260.5542586975671
 21
1610.520618839332
 31
0.0
  0
LINE
  5
141A8
  8
HIDE
 10
2248.4529678227868
 20
1620.014493968614
 30
0.0
 11
2248.1090926935049
 21
1619.6706188393321
 31
0.0
  0
ARC
  5
142AE
  8
HIDE1
 10
2090.705604020327
 20
1640.520618839332
 30
0.0
 40
15.0
 50
270.0
 51
180.0
  0
CIRCLE
  5
142AF
  8
0
 10
2090.705604020327
 20
1640.520618839332
 30
0.0
 40
14.25
  0
ARC
  5
142B0
  8
0
 10
2090.705604020327
 20
1640.520618839332
 30
0.0
 40
22.5
 50
249.34064672843519
 51
290.65935327156478
  0
ARC
  5
142B1
  8
0
 10
2090.705604020327
 20
1640.520618839332
 30
0.0
 40
22.5
 50
339.34064672867021
 51
20.659353271329831
  0
ARC
  5
142B2
  8
0
 10
2090.705604020327
 20
1640.520618839332
 30
0.0
 40
22.5
 50
69.340646728435175
 51
110.6593532715647
  0
ARC
  5
142B3
  8
0
 10
2090.705604020327
 20
1640.520618839332
 30
0.0
 40
22.5
 50
159.34064672867009
 51
200.65935327132971
  0
POLYLINE
  5
142B4
  8
0
 66
     1
 10
0.0
 20
0.0
 30
0.0
  0
VERTEX
  5
144D0
  8
0
 10
2069.6524764817032
 20
1632.5823683493099
 30
0.0
  0
VERTEX
  5
144D1
  8
0
 10
2082.767353530307
 20
1619.4674913007041
 30
0.0
  0
SEQEND
  5
144D2
  8
0
  0
POLYLINE
  5
142B5
  8
0
 66
     1
 10
0.0
 20
0.0
 30
0.0
  0
VERTEX
  5
144D3
  8
0
 10
2098.643854510347
 20
1619.4674913007041
 30
0.0
  0
VERTEX
  5
144D4
  8
0
 10
2111.7587315589508
 20
1632.5823683493079
 30
0.0
  0
SEQEND
  5
144D5
  8
0
  0
POLYLINE
  5
142B6
  8
0
 66
     1
 10
0.0
 20
0.0
 30
0.0
  0
VERTEX
  5
144D6
  8
0
 10
2111.7587315589508
 20
1648.458869329352
 30
0.0
  0
VERTEX
  5
144D7
  8
0
 10
2098.643854510347
 20
1661.5737463779581
 30
0.0
  0
SEQEND
  5
144D8
  8
0
  0
POLYLINE
  5
142B7
  8
0
 66
     1
 10
0.0
 20
0.0
 30
0.0
  0
VERTEX
  5
144D9
  8
0
 10
2082.767353530307
 20
1661.5737463779581
 30
0.0
  0
VERTEX
  5
144DA
  8
0
 10
2069.6524764817032
 20
1648.458869329354
 30
0.0
  0
SEQEND
  5
144DB
  8
0
  0
LINE
  5
142B8
  8
HIDE1
 10
2087.705604020327
 20
1662.8197219603101
 30
0.0
 11
2087.705604020327
 21
1654.451250555087
 31
0.0
  0
LINE
  5
142B9
  8
HIDE1
 10
2088.205604020327
 20
1662.88129861433
 30
0.0
 11
2088.205604020327
 21
1654.549606685928
 31
0.0
  0
LINE
  5
142BA
  8
HIDE1
 10
2093.705604020327
 20
1662.8197219603101
 30
0.0
 11
2093.705604020327
 21
1654.451250555087
 31
0.0
  0
LINE
  5
142BB
  8
HIDE1
 10
2093.205604020327
 20
1662.88129861433
 30
0.0
 11
2093.205604020327
 21
1654.5496066859309
 31
0.0
  0
LINE
  5
142BC
  8
HIDE1
 10
2087.705604020327
 20
1662.7253731455251
 30
0.0
 11
2093.705604020327
 21
1662.7253731455251
 31
0.0
  0
LINE
  5
142BD
  8
HIDE1
 10
2087.705604020327
 20
1657.7253731455251
 30
0.0
 11
2093.705604020327
 21
1657.7253731455251
 31
0.0
  0
LINE
  5
142BE
  8
HIDE1
 10
2087.705604020327
 20
1657.7253731455251
 30
0.0
 11
2088.205604020327
 21
1657.4366980109301
 31
0.0
  0
LINE
  5
142BF
  8
HIDE1
 10
2093.705604020327
 20
1657.7253731455251
 30
0.0
 11
2093.205604020327
 21
1657.4366980109301
 31
0.0
  0
LINE
  5
142C0
  8
HIDE1
 10
2093.205604020327
 20
1657.4366980109301
 30
0.0
 11
2088.205604020327
 21
1657.4366980109301
 31
0.0
  0
LINE
  5
142C1
  8
HIDE1
 10
2087.705604020327
 20
1618.221515718355
 30
0.0
 11
2087.705604020327
 21
1626.5899871235781
 31
0.0
  0
LINE
  5
142C2
  8
HIDE1
 10
2088.205604020327
 20
1618.1599390643339
 30
0.0
 11
2088.205604020327
 21
1626.4916309927351
 31
0.0
  0
LINE
  5
142C3
  8
HIDE1
 10
2093.705604020327
 20
1618.221515718355
 30
0.0
 11
2093.705604020327
 21
1626.5899871235761
 31
0.0
  0
LINE
  5
142C4
  8
HIDE1
 10
2093.205604020327
 20
1618.1599390643339
 30
0.0
 11
2093.205604020327
 21
1626.4916309927351
 31
0.0
  0
LINE
  5
142C5
  8
HIDE1
 10
2087.705604020327
 20
1618.315864533138
 30
0.0
 11
2093.705604020327
 21
1618.315864533138
 31
0.0
  0
LINE
  5
142C6
  8
HIDE1
 10
2087.705604020327
 20
1623.315864533138
 30
0.0
 11
2093.705604020327
 21
1623.315864533138
 31
0.0
  0
LINE
  5
142C7
  8
HIDE1
 10
2087.705604020327
 20
1623.315864533138
 30
0.0
 11
2088.205604020327
 21
1623.6045396677321
 31
0.0
  0
LINE
  5
142C8
  8
HIDE1
 10
2093.705604020327
 20
1623.315864533138
 30
0.0
 11
2093.205604020327
 21
1623.6045396677321
 31
0.0
  0
LINE
  5
142C9
  8
HIDE1
 10
2093.205604020327
 20
1623.6045396677321
 30
0.0
 11
2088.205604020327
 21
1623.6045396677321
 31
0.0
  0
LINE
  5
142F6
  8
CENTER
 10
2221.093944789829
 20
1640.520618839332
 30
0.0
 11
2197.5494638146788
 21
1640.520618839332
 31
0.0
  0
LINE
  5
142F7
  8
HIDE1
 10
2217.5542586975671
 20
1621.0206188393299
 30
0.0
 11
2217.5542586975671
 21
1660.020618839334
 31
0.0
  0
LINE
  5
142F8
  8
CENTER
 10
2209.0542586975662
 20
1616.1639573910879
 30
0.0
 11
2209.0542586975662
 21
1628.2511467773591
 31
0.0
  0
LINE
  5
142F9
  8
HIDE1
 10
2217.0542586975671
 20
1618.020618839332
 30
0.0
 11
2217.0542586975671
 21
1663.020618839332
 31
0.0
  0
LINE
  5
142FA
  8
0
 10
2201.5542586975671
 20
1618.020618839332
 30
0.0
 11
2201.5542586975671
 21
1663.020618839332
 31
0.0
  0
LINE
  5
142FB
  8
0
 10
2209.5542586975671
 20
1618.0206188393331
 30
0.0
 11
2201.5542586975671
 21
1618.020618839332
 31
0.0
  0
LINE
  5
142FC
  8
HIDE1
 10
2217.5542586975671
 20
1621.0206188393299
 30
0.0
 11
2217.0542586975671
 21
1620.7319437047361
 31
0.0
  0
LINE
  5
142FD
  8
HIDE1
 10
2212.0542586975671
 20
1618.020618839332
 30
0.0
 11
2212.0542586975671
 21
1626.270618839332
 31
0.0
  0
LINE
  5
142FE
  8
HIDE1
 10
2211.5542586975671
 20
1618.020618839332
 30
0.0
 11
2211.5542586975671
 21
1626.270618839332
 31
0.0
  0
LINE
  5
142FF
  8
HIDE1
 10
2206.0542586975671
 20
1618.020618839332
 30
0.0
 11
2206.0542586975671
 21
1626.270618839332
 31
0.0
  0
LINE
  5
14300
  8
HIDE1
 10
2206.5542586975671
 20
1618.020618839332
 30
0.0
 11
2206.5542586975671
 21
1626.270618839332
 31
0.0
  0
LINE
  5
14301
  8
HIDE1
 10
2212.0542586975671
 20
1618.315864533138
 30
0.0
 11
2206.0542586975671
 21
1618.315864533138
 31
0.0
  0
LINE
  5
14302
  8
HIDE1
 10
2212.0542586975671
 20
1623.315864533138
 30
0.0
 11
2206.0542586975671
 21
1623.315864533138
 31
0.0
  0
LINE
  5
14303
  8
HIDE1
 10
2212.0542586975671
 20
1623.315864533138
 30
0.0
 11
2211.5542586975671
 21
1623.6045396677321
 31
0.0
  0
LINE
  5
14304
  8
HIDE1
 10
2206.0542586975671
 20
1623.315864533138
 30
0.0
 11
2206.5542586975671
 21
1623.6045396677321
 31
0.0
  0
LINE
  5
14305
  8
HIDE1
 10
2206.5542586975671
 20
1623.6045396677321
 30
0.0
 11
2211.5542586975671
 21
1623.6045396677321
 31
0.0
  0
LINE
  5
14306
  8
HIDE1
 10
2217.5542586975671
 20
1625.520618839332
 30
0.0
 11
2201.5542586975671
 21
1625.520618839332
 31
0.0
  0
LINE
  5
14307
  8
HIDE1
 10
2217.5542586975671
 20
1626.270618839332
 30
0.0
 11
2201.5542586975671
 21
1626.270618839332
 31
0.0
  0
LINE
  5
14308
  8
0
 10
2209.5542586975671
 20
1632.582368349317
 30
0.0
 11
2201.5542586975671
 21
1632.582368349317
 31
0.0
  0
LINE
  5
14309
  8
CENTER
 10
2209.0542586975662
 20
1664.877280287576
 30
0.0
 11
2209.0542586975662
 21
1652.7900909013049
 31
0.0
  0
LINE
  5
1430A
  8
0
 10
2209.5542586975671
 20
1663.0206188393331
 30
0.0
 11
2201.5542586975671
 21
1663.020618839332
 31
0.0
  0
LINE
  5
1430B
  8
HIDE1
 10
2217.5542586975671
 20
1660.020618839334
 30
0.0
 11
2217.0542586975671
 21
1660.3092939739281
 31
0.0
  0
LINE
  5
1430C
  8
HIDE1
 10
2212.0542586975671
 20
1663.020618839332
 30
0.0
 11
2212.0542586975671
 21
1654.770618839332
 31
0.0
  0
LINE
  5
1430D
  8
HIDE1
 10
2211.5542586975671
 20
1663.020618839332
 30
0.0
 11
2211.5542586975671
 21
1654.770618839332
 31
0.0
  0
LINE
  5
1430E
  8
HIDE1
 10
2206.0542586975671
 20
1663.020618839332
 30
0.0
 11
2206.0542586975671
 21
1654.770618839332
 31
0.0
  0
LINE
  5
1430F
  8
HIDE1
 10
2206.5542586975671
 20
1663.020618839332
 30
0.0
 11
2206.5542586975671
 21
1654.770618839332
 31
0.0
  0
LINE
  5
14310
  8
HIDE1
 10
2212.0542586975671
 20
1662.7253731455251
 30
0.0
 11
2206.0542586975671
 21
1662.7253731455251
 31
0.0
  0
LINE
  5
14311
  8
HIDE1
 10
2212.0542586975671
 20
1657.7253731455251
 30
0.0
 11
2206.0542586975671
 21
1657.7253731455251
 31
0.0
  0
LINE
  5
14312
  8
HIDE1
 10
2212.0542586975671
 20
1657.7253731455251
 30
0.0
 11
2211.5542586975671
 21
1657.4366980109301
 31
0.0
  0
LINE
  5
14313
  8
HIDE1
 10
2206.0542586975671
 20
1657.7253731455251
 30
0.0
 11
2206.5542586975671
 21
1657.4366980109301
 31
0.0
  0
LINE
  5
14314
  8
HIDE1
 10
2206.5542586975671
 20
1657.4366980109301
 30
0.0
 11
2211.5542586975671
 21
1657.4366980109301
 31
0.0
  0
LINE
  5
14315
  8
HIDE1
 10
2217.5542586975671
 20
1655.520618839332
 30
0.0
 11
2201.5542586975671
 21
1655.520618839332
 31
0.0
  0
LINE
  5
14316
  8
HIDE1
 10
2217.5542586975671
 20
1654.770618839332
 30
0.0
 11
2201.5542586975671
 21
1654.770618839332
 31
0.0
  0
LINE
  5
14317
  8
0
 10
2209.5542586975739
 20
1648.458869329347
 30
0.0
 11
2201.5542586975671
 21
1648.458869329344
 31
0.0
  0
LINE
  5
14318
  8
HIDE1
 10
2209.5542586975671
 20
1663.0206188393331
 30
0.0
 11
2217.0542586975671
 21
1663.020618839332
 31
0.0
  0
LINE
  5
14319
  8
HIDE1
 10
2209.5542586975671
 20
1618.0206188393331
 30
0.0
 11
2217.0542586975671
 21
1618.020618839334
 31
0.0
  0
LINE
  5
1431A
  8
HIDE1
 10
2209.5542586975671
 20
1648.458869329347
 30
0.0
 11
2217.0542586975671
 21
1648.458869329347
 31
0.0
  0
LINE
  5
1431B
  8
HIDE1
 10
2209.5542586975671
 20
1632.582368349317
 30
0.0
 11
2217.0542586975671
 21
1632.582368349317
 31
0.0
  0
LINE
  5
1431C
  8
HIDE
 10
2217.5542586975671
 20
1658.770618839332
 30
0.0
 11
2217.5542586975671
 21
1622.2706188393311
 31
0.0
  0
ENDSEC
  0
EOF
